  0
SECTION
  2
HEADER
  9
$ACADVER
  1
AC1014
  9
$HANDSEED
  5
FFFF
  9
$MEASUREMENT
 70
     1
  0
ENDSEC
  0
SECTION
  2
TABLES
  0
TABLE
  2
VPORT
  5
8
330
0
100
AcDbSymbolTable
 70
     4
  0
VPORT
  5
2E
330
8
100
AcDbSymbolTableRecord
100
AcDbViewportTableRecord
  2
*ACTIVE
 70
     0
 10
0.0
 20
0.0
 11
1.0
 21
1.0
 12
210.0
 22
148.5
 13
0.0
 23
0.0
 14
10.0
 24
10.0
 15
10.0
 25
10.0
 16
0.0
 26
0.0
 36
1.0
 17
0.0
 27
0.0
 37
0.0
 40
341.0
 41
1.24
 42
50.0
 43
0.0
 44
0.0
 50
0.0
 51
0.0
 71
     0
 72
   100
 73
     1
 74
     3
 75
     0
 76
     0
 77
     0
 78
     0
  0
ENDTAB
  0
TABLE
  2
LTYPE
  5
5
330
0
100
AcDbSymbolTable
 70
     1
  0
LTYPE
  5
14
330
5
100
AcDbSymbolTableRecord
100
AcDbLinetypeTableRecord
  2
BYBLOCK
 70
     0
  3

 72
    65
 73
     0
 40
0.0
  0
LTYPE
  5
15
330
5
100
AcDbSymbolTableRecord
100
AcDbLinetypeTableRecord
  2
BYLAYER
 70
     0
  3

 72
    65
 73
     0
 40
0.0
  0
LTYPE
  5
16
330
5
100
AcDbSymbolTableRecord
100
AcDbLinetypeTableRecord
  2
CONTINUOUS
 70
     0
  3
Solid line
 72
    65
 73
     0
 40
0.0
  0
ENDTAB
  0
TABLE
  2
LAYER
  5
2
100
AcDbSymbolTable
 70
2
  0
LAYER
  5
50
100
AcDbSymbolTableRecord
100
AcDbLayerTableRecord
  2
0
 70
0
  6
CONTINUOUS
  0
LAYER
  5
51
100
AcDbSymbolTableRecord
100
AcDbLayerTableRecord
  2
Linie
 70
0
  6
CONTINUOUS
  0
ENDTAB
  0
TABLE
  2
STYLE
  5
3
330
0
100
AcDbSymbolTable
 70
     1
  0
STYLE
  5
11
330
3
100
AcDbSymbolTableRecord
100
AcDbTextStyleTableRecord
  2
STANDARD
 70
     0
 40
0.0
 41
1.0
 50
0.0
 71
     0
 42
2.5
  3
txt
  4

  0
ENDTAB
  0
TABLE
  2
VIEW
  5
6
330
0
100
AcDbSymbolTable
 70
     0
  0
ENDTAB
  0
TABLE
  2
UCS
  5
7
330
0
100
AcDbSymbolTable
 70
     0
  0
ENDTAB
  0
TABLE
  2
APPID
  5
9
330
0
100
AcDbSymbolTable
 70
     2
  0
APPID
  5
12
330
9
100
AcDbSymbolTableRecord
100
AcDbRegAppTableRecord
  2
ACAD
 70
     0
  0
ENDTAB
  0
TABLE
  2
DIMSTYLE
  5
A
330
0
100
AcDbSymbolTable
 70
     1
  0
DIMSTYLE
105
27
330
A
100
AcDbSymbolTableRecord
100
AcDbDimStyleTableRecord
  2
ISO-25
 70
     0
  3

  4

  5

  6

  7

 40
1.0
 41
2.5
 42
0.625
 43
3.75
 44
1.25
 45
0.0
 46
0.0
 47
0.0
 48
0.0
140
2.5
141
2.5
142
0.0
143
0.03937007874016
144
1.0
145
0.0
146
1.0
147
0.625
 71
     0
 72
     0
 73
     0
 74
     0
 75
     0
 76
     0
 77
     1
 78
     8
170
     0
171
     3
172
     1
173
     0
174
     0
175
     0
176
     0
177
     0
178
     0
270
     2
271
     2
272
     2
273
     2
274
     3
340
11
275
     0
280
     0
281
     0
282
     0
283
     0
284
     8
285
     0
286
     0
287
     3
288
     0
  0
ENDTAB
  0
TABLE
  2
BLOCK_RECORD
  5
1
330
0
100
AcDbSymbolTable
 70
     1
  0
BLOCK_RECORD
  5
1F
330
1
100
AcDbSymbolTableRecord
100
AcDbBlockTableRecord
  2
*MODEL_SPACE
  0
BLOCK_RECORD
  5
1B
330
1
100
AcDbSymbolTableRecord
100
AcDbBlockTableRecord
  2
*PAPER_SPACE
  0
ENDTAB
  0
ENDSEC
  0
SECTION
  2
BLOCKS
  0
BLOCK
  5
20
330
1F
100
AcDbEntity
  8
0
100
AcDbBlockBegin
  2
*MODEL_SPACE
 70
     0
 10
0.0
 20
0.0
 30
0.0
  3
*MODEL_SPACE
  1

  0
ENDBLK
  5
21
330
1F
100
AcDbEntity
  8
0
100
AcDbBlockEnd
  0
BLOCK
  5
1C
330
1B
100
AcDbEntity
 67
     1
  8
0
100
AcDbBlockBegin
  2
*PAPER_SPACE
  1

  0
ENDBLK
  5
1D
330
1B
100
AcDbEntity
 67
     1
  8
0
100
AcDbBlockEnd
  0
ENDSEC
  0
SECTION
  2
ENTITIES
  0
SPLINE
  5
100
100
AcDbEntity
  8
Linie
 62
7
100
AcDbSpline
 70
8
 71
3
 72
8
 73
4
 74
0
 40
0
 40
0
 40
0
 40
0
 40
1
 40
1
 40
1
 40
1
 10
234.351410
 20
47.781950
 30
0.0
 10
229.587390
 20
47.781950
 30
0.0
 10
228.185340
 20
48.753250
 30
0.0
 10
227.351400
 20
50.329370
 30
0.0
  0
SPLINE
  5
101
100
AcDbEntity
  8
Linie
 62
7
100
AcDbSpline
 70
8
 71
3
 72
8
 73
4
 74
0
 40
0
 40
0
 40
0
 40
0
 40
1
 40
1
 40
1
 40
1
 10
79.114231
 20
51.477550
 30
0.0
 10
67.489370
 20
51.558850
 30
0.0
 10
40.444788
 20
50.580500
 30
0.0
 10
17.148889
 20
37.491450
 30
0.0
  0
SPLINE
  5
102
100
AcDbEntity
  8
Linie
 62
7
100
AcDbSpline
 70
8
 71
3
 72
8
 73
4
 74
0
 40
0
 40
0
 40
0
 40
0
 40
1
 40
1
 40
1
 40
1
 10
17.148889
 20
37.491450
 30
0.0
 10
13.048241
 20
35.187450
 30
0.0
 10
3.852922
 20
38.957290
 30
0.0
 10
3.712445
 20
28.864280
 30
0.0
  0
SPLINE
  5
103
100
AcDbEntity
  8
Linie
 62
7
100
AcDbSpline
 70
8
 71
3
 72
8
 73
4
 74
0
 40
0
 40
0
 40
0
 40
0
 40
1
 40
1
 40
1
 40
1
 10
3.712445
 20
28.864280
 30
0.0
 10
75.688077
 20
14.884250
 30
0.0
 10
116.685050
 20
10.231720
 30
0.0
 10
189.884810
 20
3.774530
 30
0.0
  0
SPLINE
  5
104
100
AcDbEntity
  8
Linie
 62
7
100
AcDbSpline
 70
8
 71
3
 72
8
 73
4
 74
0
 40
0
 40
0
 40
0
 40
0
 40
1
 40
1
 40
1
 40
1
 10
189.884810
 20
3.774530
 30
0.0
 10
192.233500
 20
3.567340
 30
0.0
 10
193.951100
 20
2.788950
 30
0.0
 10
196.368180
 20
2.577680
 30
0.0
  0
SPLINE
  5
105
100
AcDbEntity
  8
Linie
 62
7
100
AcDbSpline
 70
8
 71
3
 72
8
 73
4
 74
0
 40
0
 40
0
 40
0
 40
0
 40
1
 40
1
 40
1
 40
1
 10
196.368180
 20
2.577680
 30
0.0
 10
198.732620
 20
4.579820
 30
0.0
 10
196.497030
 20
6.190150
 30
0.0
 10
196.311180
 20
7.683770
 30
0.0
  0
SPLINE
  5
106
100
AcDbEntity
  8
Linie
 62
7
100
AcDbSpline
 70
8
 71
3
 72
8
 73
4
 74
0
 40
0
 40
0
 40
0
 40
0
 40
1
 40
1
 40
1
 40
1
 10
196.311180
 20
7.683770
 30
0.0
 10
194.377700
 20
23.225070
 30
0.0
 10
198.620040
 20
36.402780
 30
0.0
 10
217.345010
 20
36.402780
 30
0.0
  0
LWPOLYLINE
  5
107
100
AcDbEntity
  8
Linie
 62
7
100
AcDbPolyline
 90
2
 70
0
 10
227.351400
 20
50.329370
 30
0.0
 10
79.114231
 20
51.477550
 30
0.0
  0
SPLINE
  5
108
100
AcDbEntity
  8
Linie
 62
7
100
AcDbSpline
 70
8
 71
3
 72
8
 73
4
 74
0
 40
0
 40
0
 40
0
 40
0
 40
1
 40
1
 40
1
 40
1
 10
227.351370
 20
36.222720
 30
0.0
 10
228.479060
 20
37.596410
 30
0.0
 10
229.290960
 20
38.681950
 30
0.0
 10
234.351380
 20
38.681950
 30
0.0
  0
LWPOLYLINE
  5
109
100
AcDbEntity
  8
Linie
 62
7
100
AcDbPolyline
 90
2
 70
0
 10
217.345010
 20
36.402780
 30
0.0
 10
227.351370
 20
36.222720
 30
0.0
  0
SPLINE
  5
10a
100
AcDbEntity
  8
Linie
 62
7
100
AcDbSpline
 70
8
 71
3
 72
8
 73
4
 74
0
 40
0
 40
0
 40
0
 40
0
 40
1
 40
1
 40
1
 40
1
 10
306.586710
 20
47.781950
 30
0.0
 10
275.317270
 20
48.073170
 30
0.0
 10
267.565390
 20
47.873550
 30
0.0
 10
234.351410
 20
47.781950
 30
0.0
  0
LWPOLYLINE
  5
10b
100
AcDbEntity
  8
Linie
 62
7
100
AcDbPolyline
 90
3
 70
0
 10
234.351380
 20
38.681950
 30
0.0
 10
306.587000
 20
38.681950
 30
0.0
 10
306.586710
 20
47.781950
 30
0.0
  0
LWPOLYLINE
  5
10c
100
AcDbEntity
  8
Linie
 62
7
100
AcDbPolyline
 90
1
 70
1
 10
234.351410
 20
47.781950
 30
0.0
  0
LWPOLYLINE
  5
10d
100
AcDbEntity
  8
Linie
 62
7
100
AcDbPolyline
 90
4
 70
1
 10
293.888000
 20
44.915650
 30
0.0
 10
303.719308
 20
44.915650
 30
0.0
 10
303.719308
 20
42.084341
 30
0.0
 10
293.888000
 20
42.084341
 30
0.0
  0
LWPOLYLINE
  5
10e
100
AcDbEntity
  8
Linie
 62
5
100
AcDbPolyline
 90
4
 70
1
 10
111.115230
 20
157.279041
 30
0.0
 10
211.115230
 20
157.279041
 30
0.0
 10
211.115230
 20
57.279041
 30
0.0
 10
111.115230
 20
57.279041
 30
0.0
  0
ENDSEC
  0
SECTION
  2
OBJECTS
  0
DICTIONARY
  5
C
330
0
100
AcDbDictionary
  3
ACAD_GROUP
350
D
  3
ACAD_MLINESTYLE
350
17
  0
DICTIONARY
  5
D
330
C
100
AcDbDictionary
  0
DICTIONARY
  5
1A
330
C
100
AcDbDictionary
  0
DICTIONARY
  5
17
330
C
100
AcDbDictionary
  3
STANDARD
350
18
  0
DICTIONARY
  5
19
330
C
100
AcDbDictionary
  0
ENDSEC
  0
EOF
